ISO-10303-21;
HEADER;
FILE_DESCRIPTION (( 'STEP AP203' ),
    '1' );
FILE_NAME ('Q-QZWP-R4-12.7-1030-M.STEP',
    '2020-12-23T01:22:58',
    ( '' ),
    ( '' ),
    'SwSTEP 2.0',
    'SolidWorks 2020',
    '' );
FILE_SCHEMA (( 'CONFIG_CONTROL_DESIGN' ));
ENDSEC;

DATA;
#1 = DIRECTION ( 'NONE',  ( 0.000000000000000000, 0.000000000000000000, -1.000000000000000000 ) ) ;
#2 = CARTESIAN_POINT ( 'NONE',  ( -1.500000000000000444, 0.000000000000000000, 0.000000000000000000 ) ) ;
#3 = CARTESIAN_POINT ( 'NONE',  ( 1.500000000000000888, 0.000000000000000000, 6.349999999999999645 ) ) ;
#4 = ORIENTED_EDGE ( 'NONE', *, *, #191, .F. ) ;
#5 = LOCAL_TIME ( 9, 22, 58.00000000000000000, #94 ) ;
#6 = ADVANCED_FACE ( 'NONE', ( #52 ), #198, .F. ) ;
#7 = ORIENTED_EDGE ( 'NONE', *, *, #129, .T. ) ;
#8 = DIRECTION ( 'NONE',  ( -1.000000000000000000, -0.000000000000000000, -0.000000000000000000 ) ) ;
#9 = CC_DESIGN_PERSON_AND_ORGANIZATION_ASSIGNMENT ( #296, #272, ( #180 ) ) ;
#10 = PRODUCT_DEFINITION_FORMATION_WITH_SPECIFIED_SOURCE ( 'ANY', '', #180, .NOT_KNOWN. ) ;
#11 = EDGE_CURVE ( 'NONE', #266, #300, #194, .T. ) ;
#12 = EDGE_CURVE ( 'NONE', #218, #177, #40, .T. ) ;
#13 = APPROVAL_DATE_TIME ( #73, #144 ) ;
#14 = EDGE_LOOP ( 'NONE', ( #104, #302, #93, #240 ) ) ;
#15 = CC_DESIGN_APPROVAL ( #330, ( #289 ) ) ;
#16 = ORIENTED_EDGE ( 'NONE', *, *, #11, .F. ) ;
#17 = PERSON_AND_ORGANIZATION ( #221, #163 ) ;
#18 = CARTESIAN_POINT ( 'NONE',  ( -1.614212418857619014, 0.000000000000000000, 0.000000000000000000 ) ) ;
#19 = CC_DESIGN_PERSON_AND_ORGANIZATION_ASSIGNMENT ( #219, #96, ( #10 ) ) ;
#20 = AXIS2_PLACEMENT_3D ( 'NONE', #279, #56, #160 ) ;
#21 = APPROVAL_PERSON_ORGANIZATION ( #123, #330, #326 ) ;
#22 = CARTESIAN_POINT ( 'NONE',  ( -1.614212418857619014, 0.000000000000000000, 12.69999999999999929 ) ) ;
#23 = EDGE_LOOP ( 'NONE', ( #39, #188, #333, #75 ) ) ;
#24 = VERTEX_POINT ( 'NONE', #332 ) ;
#25 = ORIENTED_EDGE ( 'NONE', *, *, #284, .T. ) ;
#26 = DIRECTION ( 'NONE',  ( 0.000000000000000000, 0.000000000000000000, 1.000000000000000000 ) ) ;
#27 = ORIENTED_EDGE ( 'NONE', *, *, #129, .F. ) ;
#28 = AXIS2_PLACEMENT_3D ( 'NONE', #335, #154, #103 ) ;
#29 = FACE_OUTER_BOUND ( 'NONE', #65, .T. ) ;
#30 = LOCAL_TIME ( 9, 22, 58.00000000000000000, #70 ) ;
#31 = CARTESIAN_POINT ( 'NONE',  ( 3.000000000000000888, 7.776507174585692163E-16, -6.349999999999999645 ) ) ;
#32 =( LENGTH_UNIT ( ) NAMED_UNIT ( * ) SI_UNIT ( .MILLI., .METRE. ) );
#33 = CARTESIAN_POINT ( 'NONE',  ( -2.999999999999999556, 0.000000000000000000, 6.349999999999999645 ) ) ;
#34 = DIRECTION ( 'NONE',  ( -1.000000000000000000, -0.000000000000000000, -0.000000000000000000 ) ) ;
#35 =( GEOMETRIC_REPRESENTATION_CONTEXT ( 3 ) GLOBAL_UNCERTAINTY_ASSIGNED_CONTEXT ( ( #278 ) ) GLOBAL_UNIT_ASSIGNED_CONTEXT ( ( #32, #77, #270 ) ) REPRESENTATION_CONTEXT ( 'NONE', 'WORKASPACE' ) );
#36 = APPROVAL_PERSON_ORGANIZATION ( #268, #144, #264 ) ;
#37 = FACE_BOUND ( 'NONE', #207, .T. ) ;
#38 = DIRECTION ( 'NONE',  ( 0.000000000000000000, 0.000000000000000000, 1.000000000000000000 ) ) ;
#39 = ORIENTED_EDGE ( 'NONE', *, *, #191, .T. ) ;
#40 = CIRCLE ( 'NONE', #237, 12.69999999999999929 ) ;
#41 = CC_DESIGN_DATE_AND_TIME_ASSIGNMENT ( #167, #325, ( #117 ) ) ;
#42 = CYLINDRICAL_SURFACE ( 'NONE', #48, 6.349999999999999645 ) ;
#43 = AXIS2_PLACEMENT_3D ( 'NONE', #236, #8, #260 ) ;
#44 = PERSON_AND_ORGANIZATION_ROLE ( 'creator' ) ;
#45 = ORIENTED_EDGE ( 'NONE', *, *, #193, .F. ) ;
#46 = FACE_OUTER_BOUND ( 'NONE', #118, .T. ) ;
#47 = VERTEX_POINT ( 'NONE', #254 ) ;
#48 = AXIS2_PLACEMENT_3D ( 'NONE', #63, #64, #38 ) ;
#49 = ADVANCED_FACE ( 'NONE', ( #46 ), #251, .F. ) ;
#50 = ORIENTED_EDGE ( 'NONE', *, *, #250, .F. ) ;
#51 = EDGE_CURVE ( 'NONE', #189, #47, #238, .T. ) ;
#52 = FACE_OUTER_BOUND ( 'NONE', #145, .T. ) ;
#53 = APPLICATION_PROTOCOL_DEFINITION ( 'international standard', 'config_control_design', 1994, #247 ) ;
#54 = CARTESIAN_POINT ( 'NONE',  ( 3.000000000000000888, 0.000000000000000000, 6.349999999999999645 ) ) ;
#55 = AXIS2_PLACEMENT_3D ( 'NONE', #137, #112, #232 ) ;
#56 = DIRECTION ( 'NONE',  ( 1.000000000000000000, 0.000000000000000000, 0.000000000000000000 ) ) ;
#57 = CC_DESIGN_SECURITY_CLASSIFICATION ( #117, ( #10 ) ) ;
#58 = DIRECTION ( 'NONE',  ( 0.000000000000000000, 0.000000000000000000, 1.000000000000000000 ) ) ;
#59 = CARTESIAN_POINT ( 'NONE',  ( -1.614212418857619014, 7.776507174585692163E-16, -6.349999999999999645 ) ) ;
#60 = DIRECTION ( 'NONE',  ( 0.000000000000000000, 0.000000000000000000, -1.000000000000000000 ) ) ;
#61 = CIRCLE ( 'NONE', #28, 12.69999999999999929 ) ;
#62 = CC_DESIGN_APPROVAL ( #144, ( #117 ) ) ;
#63 = CARTESIAN_POINT ( 'NONE',  ( -1.614212418857619014, 0.000000000000000000, 0.000000000000000000 ) ) ;
#64 = DIRECTION ( 'NONE',  ( -1.000000000000000000, -0.000000000000000000, -0.000000000000000000 ) ) ;
#65 = EDGE_LOOP ( 'NONE', ( #318, #226 ) ) ;
#66 = VERTEX_POINT ( 'NONE', #307 ) ;
#67 = APPROVAL_DATE_TIME ( #267, #308 ) ;
#68 = ORIENTED_EDGE ( 'NONE', *, *, #190, .F. ) ;
#69 = EDGE_CURVE ( 'NONE', #24, #281, #61, .T. ) ;
#70 = COORDINATED_UNIVERSAL_TIME_OFFSET ( 8, 0, .AHEAD. ) ;
#71 = COORDINATED_UNIVERSAL_TIME_OFFSET ( 8, 0, .AHEAD. ) ;
#72 = VECTOR ( 'NONE', #34, 1000.000000000000000 ) ;
#73 = DATE_AND_TIME ( #150, #5 ) ;
#74 = APPROVAL_DATE_TIME ( #106, #330 ) ;
#75 = ORIENTED_EDGE ( 'NONE', *, *, #111, .F. ) ;
#76 = EDGE_LOOP ( 'NONE', ( #290, #292, #100, #277 ) ) ;
#77 =( NAMED_UNIT ( * ) PLANE_ANGLE_UNIT ( ) SI_UNIT ( $, .RADIAN. ) );
#78 = DIRECTION ( 'NONE',  ( 0.000000000000000000, 0.000000000000000000, 1.000000000000000000 ) ) ;
#79 = ADVANCED_FACE ( 'NONE', ( #305 ), #202, .F. ) ;
#80 = EDGE_CURVE ( 'NONE', #119, #295, #228, .T. ) ;
#81 = CARTESIAN_POINT ( 'NONE',  ( -1.614212418857619014, 0.000000000000000000, 0.000000000000000000 ) ) ;
#82 = ORIENTED_EDGE ( 'NONE', *, *, #169, .T. ) ;
#83 = ORIENTED_EDGE ( 'NONE', *, *, #204, .T. ) ;
#84 = CARTESIAN_POINT ( 'NONE',  ( 3.000000000000000000, 1.555301434917138433E-15, -12.69999999999999929 ) ) ;
#85 = CC_DESIGN_PERSON_AND_ORGANIZATION_ASSIGNMENT ( #99, #171, ( #117 ) ) ;
#86 = AXIS2_PLACEMENT_3D ( 'NONE', #88, #317, #91 ) ;
#87 = PLANE ( 'NONE',  #86 ) ;
#88 = CARTESIAN_POINT ( 'NONE',  ( 1.500000000000000444, 6.349999999999999645, 0.000000000000000000 ) ) ;
#89 = DIRECTION ( 'NONE',  ( 0.000000000000000000, 0.000000000000000000, 1.000000000000000000 ) ) ;
#90 = EDGE_CURVE ( 'NONE', #218, #24, #243, .T. ) ;
#91 = DIRECTION ( 'NONE',  ( -0.000000000000000000, 0.000000000000000000, 1.000000000000000000 ) ) ;
#92 = AXIS2_PLACEMENT_3D ( 'NONE', #164, #314, #162 ) ;
#93 = ORIENTED_EDGE ( 'NONE', *, *, #111, .T. ) ;
#94 = COORDINATED_UNIVERSAL_TIME_OFFSET ( 8, 0, .AHEAD. ) ;
#95 = ORIENTED_EDGE ( 'NONE', *, *, #51, .T. ) ;
#96 = PERSON_AND_ORGANIZATION_ROLE ( 'creator' ) ;
#97 = DIRECTION ( 'NONE',  ( 0.000000000000000000, 0.000000000000000000, 1.000000000000000000 ) ) ;
#98 = AXIS2_PLACEMENT_3D ( 'NONE', #220, #322, #97 ) ;
#99 = PERSON_AND_ORGANIZATION ( #221, #163 ) ;
#100 = ORIENTED_EDGE ( 'NONE', *, *, #190, .T. ) ;
#101 = CIRCLE ( 'NONE', #293, 6.349999999999999645 ) ;
#102 = DIRECTION ( 'NONE',  ( -1.000000000000000000, -0.000000000000000000, -0.000000000000000000 ) ) ;
#103 = DIRECTION ( 'NONE',  ( 0.000000000000000000, 0.000000000000000000, 1.000000000000000000 ) ) ;
#104 = ORIENTED_EDGE ( 'NONE', *, *, #90, .F. ) ;
#105 = DIRECTION ( 'NONE',  ( 1.000000000000000000, 0.000000000000000000, 0.000000000000000000 ) ) ;
#106 = DATE_AND_TIME ( #269, #127 ) ;
#107 = CARTESIAN_POINT ( 'NONE',  ( 1.500000000000000888, 0.000000000000000000, 0.000000000000000000 ) ) ;
#108 = VECTOR ( 'NONE', #213, 1000.000000000000000 ) ;
#109 = LINE ( 'NONE', #315, #280 ) ;
#110 = ADVANCED_FACE ( 'NONE', ( #327 ), #246, .T. ) ;
#111 = EDGE_CURVE ( 'NONE', #177, #281, #273, .T. ) ;
#112 = DIRECTION ( 'NONE',  ( -1.000000000000000000, -0.000000000000000000, -0.000000000000000000 ) ) ;
#113 = MANIFOLD_SOLID_BREP ( 'Ðý×', #133 ) ;
#114 = CYLINDRICAL_SURFACE ( 'NONE', #92, 6.349999999999999645 ) ;
#115 = DESIGN_CONTEXT ( 'detailed design', #247, 'design' ) ;
#116 = AXIS2_PLACEMENT_3D ( 'NONE', #271, #156, #26 ) ;
#117 = SECURITY_CLASSIFICATION ( '', '', #298 ) ;
#118 = EDGE_LOOP ( 'NONE', ( #155, #50 ) ) ;
#119 = VERTEX_POINT ( 'NONE', #256 ) ;
#120 = AXIS2_PLACEMENT_3D ( 'NONE', #107, #181, #58 ) ;
#121 = PERSON_AND_ORGANIZATION_ROLE ( 'design_supplier' ) ;
#122 = ORIENTED_EDGE ( 'NONE', *, *, #204, .F. ) ;
#123 = PERSON_AND_ORGANIZATION ( #221, #163 ) ;
#124 = CARTESIAN_POINT ( 'NONE',  ( -1.614212418857619014, 1.555301434917138433E-15, -12.69999999999999929 ) ) ;
#125 = DIRECTION ( 'NONE',  ( -1.000000000000000000, -0.000000000000000000, -0.000000000000000000 ) ) ;
#126 = CIRCLE ( 'NONE', #43, 6.349999999999999645 ) ;
#127 = LOCAL_TIME ( 9, 22, 58.00000000000000000, #71 ) ;
#128 = DIRECTION ( 'NONE',  ( 0.000000000000000000, 0.000000000000000000, 1.000000000000000000 ) ) ;
#129 = EDGE_CURVE ( 'NONE', #300, #266, #263, .T. ) ;
#130 = DIRECTION ( 'NONE',  ( 0.000000000000000000, 0.000000000000000000, 1.000000000000000000 ) ) ;
#131 = DIRECTION ( 'NONE',  ( -1.000000000000000000, -0.000000000000000000, -0.000000000000000000 ) ) ;
#132 = DATE_TIME_ROLE ( 'creation_date' ) ;
#133 = CLOSED_SHELL ( 'NONE', ( #110, #248, #6, #261, #79, #316, #227, #323, #139, #49 ) ) ;
#134 = APPROVAL_PERSON_ORGANIZATION ( #159, #308, #196 ) ;
#135 = DIRECTION ( 'NONE',  ( -1.000000000000000000, 0.000000000000000000, -0.000000000000000000 ) ) ;
#136 = CARTESIAN_POINT ( 'NONE',  ( 0.000000000000000000, 0.000000000000000000, 0.000000000000000000 ) ) ;
#137 = CARTESIAN_POINT ( 'NONE',  ( 3.000000000000000888, 0.000000000000000000, 0.000000000000000000 ) ) ;
#138 = DIRECTION ( 'NONE',  ( -1.000000000000000000, -0.000000000000000000, -0.000000000000000000 ) ) ;
#139 = ADVANCED_FACE ( 'NONE', ( #214, #262 ), #184, .F. ) ;
#140 = AXIS2_PLACEMENT_3D ( 'NONE', #146, #197, #245 ) ;
#141 = DIRECTION ( 'NONE',  ( 1.000000000000000000, 0.000000000000000000, 0.000000000000000000 ) ) ;
#142 = CARTESIAN_POINT ( 'NONE',  ( -3.000000000000000000, 0.000000000000000000, 0.000000000000000000 ) ) ;
#143 = FACE_OUTER_BOUND ( 'NONE', #14, .T. ) ;
#144 = APPROVAL ( #172, 'UNSPECIFIED' ) ;
#145 = EDGE_LOOP ( 'NONE', ( #27, #83, #192, #274 ) ) ;
#146 = CARTESIAN_POINT ( 'NONE',  ( -2.999999999999999556, 0.000000000000000000, 0.000000000000000000 ) ) ;
#147 = AXIS2_PLACEMENT_3D ( 'NONE', #161, #135, #234 ) ;
#148 = DATE_AND_TIME ( #201, #282 ) ;
#149 = DIRECTION ( 'NONE',  ( -1.000000000000000000, -0.000000000000000000, -0.000000000000000000 ) ) ;
#150 = CALENDAR_DATE ( 2020, 23, 12 ) ;
#151 = CARTESIAN_POINT ( 'NONE',  ( 1.500000000000000888, 0.000000000000000000, 0.000000000000000000 ) ) ;
#152 = EDGE_LOOP ( 'NONE', ( #4, #174 ) ) ;
#153 = VERTEX_POINT ( 'NONE', #33 ) ;
#154 = DIRECTION ( 'NONE',  ( -1.000000000000000000, -0.000000000000000000, -0.000000000000000000 ) ) ;
#155 = ORIENTED_EDGE ( 'NONE', *, *, #284, .F. ) ;
#156 = DIRECTION ( 'NONE',  ( -1.000000000000000000, -0.000000000000000000, -0.000000000000000000 ) ) ;
#157 = CC_DESIGN_PERSON_AND_ORGANIZATION_ASSIGNMENT ( #173, #44, ( #289 ) ) ;
#158 = CARTESIAN_POINT ( 'NONE',  ( -1.614212418857619014, 0.000000000000000000, 6.349999999999999645 ) ) ;
#159 = PERSON_AND_ORGANIZATION ( #221, #163 ) ;
#160 = DIRECTION ( 'NONE',  ( 0.000000000000000000, 0.000000000000000000, -1.000000000000000000 ) ) ;
#161 = CARTESIAN_POINT ( 'NONE',  ( 3.000000000000000000, 12.69999999999999929, 0.000000000000000000 ) ) ;
#162 = DIRECTION ( 'NONE',  ( 0.000000000000000000, 0.000000000000000000, 1.000000000000000000 ) ) ;
#163 = ORGANIZATION ( 'UNSPECIFIED', 'UNSPECIFIED', '' ) ;
#164 = CARTESIAN_POINT ( 'NONE',  ( -1.614212418857619014, 0.000000000000000000, 0.000000000000000000 ) ) ;
#165 = COORDINATED_UNIVERSAL_TIME_OFFSET ( 8, 0, .AHEAD. ) ;
#166 = CIRCLE ( 'NONE', #20, 6.349999999999999645 ) ;
#167 = DATE_AND_TIME ( #294, #179 ) ;
#168 = ORIENTED_EDGE ( 'NONE', *, *, #235, .T. ) ;
#169 = EDGE_CURVE ( 'NONE', #281, #24, #249, .T. ) ;
#170 = FACE_OUTER_BOUND ( 'NONE', #76, .T. ) ;
#171 = PERSON_AND_ORGANIZATION_ROLE ( 'classification_officer' ) ;
#172 = APPROVAL_STATUS ( 'not_yet_approved' ) ;
#173 = PERSON_AND_ORGANIZATION ( #221, #163 ) ;
#174 = ORIENTED_EDGE ( 'NONE', *, *, #12, .F. ) ;
#175 = DIRECTION ( 'NONE',  ( 0.000000000000000000, 0.000000000000000000, 1.000000000000000000 ) ) ;
#176 = CARTESIAN_POINT ( 'NONE',  ( -1.500000000000000444, 6.349999999999999645, 0.000000000000000000 ) ) ;
#177 = VERTEX_POINT ( 'NONE', #283 ) ;
#178 = CARTESIAN_POINT ( 'NONE',  ( -3.000000000000000000, 0.000000000000000000, 12.69999999999999929 ) ) ;
#179 = LOCAL_TIME ( 9, 22, 58.00000000000000000, #165 ) ;
#180 = PRODUCT ( 'Q-QZWP-R4-12.7-1030-M', 'Q-QZWP-R4-12.7-1030-M', '', ( #230 ) ) ;
#181 = DIRECTION ( 'NONE',  ( -1.000000000000000000, -0.000000000000000000, -0.000000000000000000 ) ) ;
#182 = APPROVAL_STATUS ( 'not_yet_approved' ) ;
#183 = LINE ( 'NONE', #158, #108 ) ;
#184 = PLANE ( 'NONE',  #147 ) ;
#185 = ORIENTED_EDGE ( 'NONE', *, *, #11, .T. ) ;
#186 = AXIS2_PLACEMENT_3D ( 'NONE', #210, #259, #89 ) ;
#187 = DIRECTION ( 'NONE',  ( -1.000000000000000000, -0.000000000000000000, -0.000000000000000000 ) ) ;
#188 = ORIENTED_EDGE ( 'NONE', *, *, #90, .T. ) ;
#189 = VERTEX_POINT ( 'NONE', #3 ) ;
#190 = EDGE_CURVE ( 'NONE', #66, #153, #109, .T. ) ;
#191 = EDGE_CURVE ( 'NONE', #177, #218, #275, .T. ) ;
#192 = ORIENTED_EDGE ( 'NONE', *, *, #306, .T. ) ;
#193 = EDGE_CURVE ( 'NONE', #153, #295, #126, .T. ) ;
#194 = CIRCLE ( 'NONE', #299, 6.349999999999999645 ) ;
#195 = APPLICATION_PROTOCOL_DEFINITION ( 'international standard', 'config_control_design', 1994, #217 ) ;
#196 = APPROVAL_ROLE ( '' ) ;
#197 = DIRECTION ( 'NONE',  ( -1.000000000000000000, -0.000000000000000000, -0.000000000000000000 ) ) ;
#198 = CYLINDRICAL_SURFACE ( 'NONE', #116, 6.349999999999999645 ) ;
#199 = VECTOR ( 'NONE', #215, 1000.000000000000000 ) ;
#200 = CC_DESIGN_PERSON_AND_ORGANIZATION_ASSIGNMENT ( #17, #121, ( #10 ) ) ;
#201 = CALENDAR_DATE ( 2020, 23, 12 ) ;
#202 = CYLINDRICAL_SURFACE ( 'NONE', #223, 6.349999999999999645 ) ;
#203 = EDGE_LOOP ( 'NONE', ( #25, #252, #321, #68 ) ) ;
#204 = EDGE_CURVE ( 'NONE', #300, #47, #231, .T. ) ;
#205 = DIRECTION ( 'NONE',  ( 1.000000000000000000, 0.000000000000000000, 0.000000000000000000 ) ) ;
#206 = AXIS2_PLACEMENT_3D ( 'NONE', #176, #205, #331 ) ;
#207 = EDGE_LOOP ( 'NONE', ( #45, #265 ) ) ;
#208 = DIRECTION ( 'NONE',  ( 0.000000000000000000, 0.000000000000000000, 1.000000000000000000 ) ) ;
#209 = FACE_OUTER_BOUND ( 'NONE', #229, .T. ) ;
#210 = CARTESIAN_POINT ( 'NONE',  ( 3.000000000000000000, 0.000000000000000000, 0.000000000000000000 ) ) ;
#211 = CIRCLE ( 'NONE', #120, 6.349999999999999645 ) ;
#212 = CC_DESIGN_DATE_AND_TIME_ASSIGNMENT ( #148, #132, ( #289 ) ) ;
#213 = DIRECTION ( 'NONE',  ( -1.000000000000000000, -0.000000000000000000, -0.000000000000000000 ) ) ;
#214 = FACE_OUTER_BOUND ( 'NONE', #152, .T. ) ;
#215 = DIRECTION ( 'NONE',  ( -1.000000000000000000, -0.000000000000000000, -0.000000000000000000 ) ) ;
#216 = AXIS2_PLACEMENT_3D ( 'NONE', #142, #138, #285 ) ;
#217 = APPLICATION_CONTEXT ( 'configuration controlled 3d designs of mechanical parts and assemblies' ) ;
#218 = VERTEX_POINT ( 'NONE', #84 ) ;
#219 = PERSON_AND_ORGANIZATION ( #221, #163 ) ;
#220 = CARTESIAN_POINT ( 'NONE',  ( -1.614212418857619014, 0.000000000000000000, 0.000000000000000000 ) ) ;
#221 = PERSON ( 'UNSPECIFIED', 'UNSPECIFIED', 'UNSPECIFIED', ('UNSPECIFIED'), ('UNSPECIFIED'), ('UNSPECIFIED') ) ;
#222 = DIRECTION ( 'NONE',  ( -1.000000000000000000, -0.000000000000000000, -0.000000000000000000 ) ) ;
#223 = AXIS2_PLACEMENT_3D ( 'NONE', #81, #149, #78 ) ;
#224 = CARTESIAN_POINT ( 'NONE',  ( 3.000000000000000000, 0.000000000000000000, 0.000000000000000000 ) ) ;
#225 = DIRECTION ( 'NONE',  ( 0.000000000000000000, 0.000000000000000000, 1.000000000000000000 ) ) ;
#226 = ORIENTED_EDGE ( 'NONE', *, *, #306, .F. ) ;
#227 = ADVANCED_FACE ( 'NONE', ( #37, #209 ), #286, .F. ) ;
#228 = LINE ( 'NONE', #276, #334 ) ;
#229 = EDGE_LOOP ( 'NONE', ( #82, #241 ) ) ;
#230 = MECHANICAL_CONTEXT ( 'NONE', #217, 'mechanical' ) ;
#231 = LINE ( 'NONE', #59, #72 ) ;
#232 = DIRECTION ( 'NONE',  ( 0.000000000000000000, 0.000000000000000000, 1.000000000000000000 ) ) ;
#233 = CIRCLE ( 'NONE', #140, 6.349999999999999645 ) ;
#234 = DIRECTION ( 'NONE',  ( -0.000000000000000000, 0.000000000000000000, 1.000000000000000000 ) ) ;
#235 = EDGE_CURVE ( 'NONE', #266, #189, #183, .T. ) ;
#236 = CARTESIAN_POINT ( 'NONE',  ( -2.999999999999999556, 0.000000000000000000, 0.000000000000000000 ) ) ;
#237 = AXIS2_PLACEMENT_3D ( 'NONE', #224, #253, #225 ) ;
#238 = CIRCLE ( 'NONE', #312, 6.349999999999999645 ) ;
#239 = CALENDAR_DATE ( 2020, 23, 12 ) ;
#240 = ORIENTED_EDGE ( 'NONE', *, *, #69, .F. ) ;
#241 = ORIENTED_EDGE ( 'NONE', *, *, #69, .T. ) ;
#242 = PRODUCT_RELATED_PRODUCT_CATEGORY ( 'detail', '', ( #180 ) ) ;
#243 = LINE ( 'NONE', #124, #287 ) ;
#244 = SHAPE_DEFINITION_REPRESENTATION ( #313, #297 ) ;
#245 = DIRECTION ( 'NONE',  ( 0.000000000000000000, 0.000000000000000000, 1.000000000000000000 ) ) ;
#246 = CYLINDRICAL_SURFACE ( 'NONE', #328, 12.69999999999999929 ) ;
#247 = APPLICATION_CONTEXT ( 'configuration controlled 3d designs of mechanical parts and assemblies' ) ;
#248 = ADVANCED_FACE ( 'NONE', ( #311 ), #114, .F. ) ;
#249 = CIRCLE ( 'NONE', #216, 12.69999999999999929 ) ;
#250 = EDGE_CURVE ( 'NONE', #119, #66, #101, .T. ) ;
#251 = PLANE ( 'NONE',  #206 ) ;
#252 = ORIENTED_EDGE ( 'NONE', *, *, #80, .T. ) ;
#253 = DIRECTION ( 'NONE',  ( -1.000000000000000000, -0.000000000000000000, -0.000000000000000000 ) ) ;
#254 = CARTESIAN_POINT ( 'NONE',  ( 1.500000000000000888, 7.776507174585692163E-16, -6.349999999999999645 ) ) ;
#255 = APPROVAL_STATUS ( 'not_yet_approved' ) ;
#256 = CARTESIAN_POINT ( 'NONE',  ( -1.500000000000000444, 7.776507174585692163E-16, -6.349999999999999645 ) ) ;
#257 = AXIS2_PLACEMENT_3D ( 'NONE', #309, #141, #60 ) ;
#258 = CARTESIAN_POINT ( 'NONE',  ( -2.999999999999999556, 7.776507174585692163E-16, -6.349999999999999645 ) ) ;
#259 = DIRECTION ( 'NONE',  ( -1.000000000000000000, -0.000000000000000000, -0.000000000000000000 ) ) ;
#260 = DIRECTION ( 'NONE',  ( 0.000000000000000000, 0.000000000000000000, 1.000000000000000000 ) ) ;
#261 = ADVANCED_FACE ( 'NONE', ( #29 ), #87, .F. ) ;
#262 = FACE_BOUND ( 'NONE', #291, .T. ) ;
#263 = CIRCLE ( 'NONE', #55, 6.349999999999999645 ) ;
#264 = APPROVAL_ROLE ( '' ) ;
#265 = ORIENTED_EDGE ( 'NONE', *, *, #324, .F. ) ;
#266 = VERTEX_POINT ( 'NONE', #54 ) ;
#267 = DATE_AND_TIME ( #239, #30 ) ;
#268 = PERSON_AND_ORGANIZATION ( #221, #163 ) ;
#269 = CALENDAR_DATE ( 2020, 23, 12 ) ;
#270 =( NAMED_UNIT ( * ) SI_UNIT ( $, .STERADIAN. ) SOLID_ANGLE_UNIT ( ) );
#271 = CARTESIAN_POINT ( 'NONE',  ( -1.614212418857619014, 0.000000000000000000, 0.000000000000000000 ) ) ;
#272 = PERSON_AND_ORGANIZATION_ROLE ( 'design_owner' ) ;
#273 = LINE ( 'NONE', #22, #199 ) ;
#274 = ORIENTED_EDGE ( 'NONE', *, *, #235, .F. ) ;
#275 = CIRCLE ( 'NONE', #186, 12.69999999999999929 ) ;
#276 = CARTESIAN_POINT ( 'NONE',  ( -1.614212418857619014, 7.776507174585692163E-16, -6.349999999999999645 ) ) ;
#277 = ORIENTED_EDGE ( 'NONE', *, *, #193, .T. ) ;
#278 = UNCERTAINTY_MEASURE_WITH_UNIT (LENGTH_MEASURE( 1.000000000000000082E-05 ), #32, 'distance_accuracy_value', 'NONE');
#279 = CARTESIAN_POINT ( 'NONE',  ( -1.500000000000000444, 0.000000000000000000, 0.000000000000000000 ) ) ;
#280 = VECTOR ( 'NONE', #187, 1000.000000000000000 ) ;
#281 = VERTEX_POINT ( 'NONE', #178 ) ;
#282 = LOCAL_TIME ( 9, 22, 58.00000000000000000, #329 ) ;
#283 = CARTESIAN_POINT ( 'NONE',  ( 3.000000000000000000, 0.000000000000000000, 12.69999999999999929 ) ) ;
#284 = EDGE_CURVE ( 'NONE', #66, #119, #166, .T. ) ;
#285 = DIRECTION ( 'NONE',  ( 0.000000000000000000, 0.000000000000000000, 1.000000000000000000 ) ) ;
#286 = PLANE ( 'NONE',  #257 ) ;
#287 = VECTOR ( 'NONE', #222, 1000.000000000000000 ) ;
#288 = CC_DESIGN_APPROVAL ( #308, ( #10 ) ) ;
#289 = PRODUCT_DEFINITION ( 'UNKNOWN', '', #10, #115 ) ;
#290 = ORIENTED_EDGE ( 'NONE', *, *, #80, .F. ) ;
#291 = EDGE_LOOP ( 'NONE', ( #185, #7 ) ) ;
#292 = ORIENTED_EDGE ( 'NONE', *, *, #250, .T. ) ;
#293 = AXIS2_PLACEMENT_3D ( 'NONE', #2, #105, #1 ) ;
#294 = CALENDAR_DATE ( 2020, 23, 12 ) ;
#295 = VERTEX_POINT ( 'NONE', #258 ) ;
#296 = PERSON_AND_ORGANIZATION ( #221, #163 ) ;
#297 = ADVANCED_BREP_SHAPE_REPRESENTATION ( 'Q-QZWP-R4-12.7-1030-M', ( #113, #304 ), #35 ) ;
#298 = SECURITY_CLASSIFICATION_LEVEL ( 'unclassified' ) ;
#299 = AXIS2_PLACEMENT_3D ( 'NONE', #303, #125, #128 ) ;
#300 = VERTEX_POINT ( 'NONE', #31 ) ;
#301 = DIRECTION ( 'NONE',  ( -1.000000000000000000, -0.000000000000000000, -0.000000000000000000 ) ) ;
#302 = ORIENTED_EDGE ( 'NONE', *, *, #12, .T. ) ;
#303 = CARTESIAN_POINT ( 'NONE',  ( 3.000000000000000888, 0.000000000000000000, 0.000000000000000000 ) ) ;
#304 = AXIS2_PLACEMENT_3D ( 'NONE', #136, #208, #310 ) ;
#305 = FACE_OUTER_BOUND ( 'NONE', #319, .T. ) ;
#306 = EDGE_CURVE ( 'NONE', #47, #189, #211, .T. ) ;
#307 = CARTESIAN_POINT ( 'NONE',  ( -1.500000000000000444, 0.000000000000000000, 6.349999999999999645 ) ) ;
#308 = APPROVAL ( #182, 'UNSPECIFIED' ) ;
#309 = CARTESIAN_POINT ( 'NONE',  ( -3.000000000000000000, 6.349999999999999645, 0.000000000000000000 ) ) ;
#310 = DIRECTION ( 'NONE',  ( 1.000000000000000000, 0.000000000000000000, 0.000000000000000000 ) ) ;
#311 = FACE_OUTER_BOUND ( 'NONE', #203, .T. ) ;
#312 = AXIS2_PLACEMENT_3D ( 'NONE', #151, #131, #130 ) ;
#313 = PRODUCT_DEFINITION_SHAPE ( 'NONE', 'NONE',  #289 ) ;
#314 = DIRECTION ( 'NONE',  ( -1.000000000000000000, -0.000000000000000000, -0.000000000000000000 ) ) ;
#315 = CARTESIAN_POINT ( 'NONE',  ( -1.614212418857619014, 0.000000000000000000, 6.349999999999999645 ) ) ;
#316 = ADVANCED_FACE ( 'NONE', ( #170 ), #42, .F. ) ;
#317 = DIRECTION ( 'NONE',  ( -1.000000000000000000, 0.000000000000000000, -0.000000000000000000 ) ) ;
#318 = ORIENTED_EDGE ( 'NONE', *, *, #51, .F. ) ;
#319 = EDGE_LOOP ( 'NONE', ( #122, #16, #168, #95 ) ) ;
#320 = CYLINDRICAL_SURFACE ( 'NONE', #98, 12.69999999999999929 ) ;
#321 = ORIENTED_EDGE ( 'NONE', *, *, #324, .T. ) ;
#322 = DIRECTION ( 'NONE',  ( -1.000000000000000000, -0.000000000000000000, -0.000000000000000000 ) ) ;
#323 = ADVANCED_FACE ( 'NONE', ( #143 ), #320, .T. ) ;
#324 = EDGE_CURVE ( 'NONE', #295, #153, #233, .T. ) ;
#325 = DATE_TIME_ROLE ( 'classification_date' ) ;
#326 = APPROVAL_ROLE ( '' ) ;
#327 = FACE_OUTER_BOUND ( 'NONE', #23, .T. ) ;
#328 = AXIS2_PLACEMENT_3D ( 'NONE', #18, #301, #175 ) ;
#329 = COORDINATED_UNIVERSAL_TIME_OFFSET ( 8, 0, .AHEAD. ) ;
#330 = APPROVAL ( #255, 'UNSPECIFIED' ) ;
#331 = DIRECTION ( 'NONE',  ( 0.000000000000000000, 0.000000000000000000, -1.000000000000000000 ) ) ;
#332 = CARTESIAN_POINT ( 'NONE',  ( -3.000000000000000000, 1.555301434917138433E-15, -12.69999999999999929 ) ) ;
#333 = ORIENTED_EDGE ( 'NONE', *, *, #169, .F. ) ;
#334 = VECTOR ( 'NONE', #102, 1000.000000000000000 ) ;
#335 = CARTESIAN_POINT ( 'NONE',  ( -3.000000000000000000, 0.000000000000000000, 0.000000000000000000 ) ) ;
ENDSEC;
END-ISO-10303-21;
